ISO-10303-21;
HEADER;
FILE_DESCRIPTION (( 'STEP AP203' ),
    '1' );
FILE_NAME ('Q-QZWP-R4-25.4-633-M.STEP',
    '2020-12-23T01:28:03',
    ( '' ),
    ( '' ),
    'SwSTEP 2.0',
    'SolidWorks 2020',
    '' );
FILE_SCHEMA (( 'CONFIG_CONTROL_DESIGN' ));
ENDSEC;

DATA;
#1 = EDGE_CURVE ( 'NONE', #153, #109, #132, .T. ) ;
#2 = DIRECTION ( 'NONE',  ( -1.000000000000000000, -0.000000000000000000, -0.000000000000000000 ) ) ;
#3 = VERTEX_POINT ( 'NONE', #47 ) ;
#4 = CALENDAR_DATE ( 2020, 23, 12 ) ;
#5 = DIRECTION ( 'NONE',  ( -1.000000000000000000, -0.000000000000000000, -0.000000000000000000 ) ) ;
#6 = DIRECTION ( 'NONE',  ( 0.000000000000000000, 0.000000000000000000, 1.000000000000000000 ) ) ;
#7 = APPROVAL_ROLE ( '' ) ;
#8 =( NAMED_UNIT ( * ) SI_UNIT ( $, .STERADIAN. ) SOLID_ANGLE_UNIT ( ) );
#9 = EDGE_CURVE ( 'NONE', #3, #153, #43, .T. ) ;
#10 = COORDINATED_UNIVERSAL_TIME_OFFSET ( 8, 0, .AHEAD. ) ;
#11 = ADVANCED_FACE ( 'NONE', ( #33 ), #71, .T. ) ;
#12 = EDGE_LOOP ( 'NONE', ( #83, #89, #82, #138 ) ) ;
#13 = APPROVAL ( #129, 'UNSPECIFIED' ) ;
#14 = AXIS2_PLACEMENT_3D ( 'NONE', #105, #2, #159 ) ;
#15 = LOCAL_TIME ( 9, 28, 3.000000000000000000, #78 ) ;
#16 = FACE_OUTER_BOUND ( 'NONE', #58, .T. ) ;
#17 = CALENDAR_DATE ( 2020, 23, 12 ) ;
#18 = DIRECTION ( 'NONE',  ( -1.000000000000000000, -0.000000000000000000, -0.000000000000000000 ) ) ;
#19 = PERSON_AND_ORGANIZATION ( #133, #29 ) ;
#20 = DIRECTION ( 'NONE',  ( -1.000000000000000000, -0.000000000000000000, -0.000000000000000000 ) ) ;
#21 = DIRECTION ( 'NONE',  ( 0.000000000000000000, 0.000000000000000000, 1.000000000000000000 ) ) ;
#22 = UNCERTAINTY_MEASURE_WITH_UNIT (LENGTH_MEASURE( 1.000000000000000082E-05 ), #170, 'distance_accuracy_value', 'NONE');
#23 = PERSON_AND_ORGANIZATION_ROLE ( 'design_supplier' ) ;
#24 = PERSON_AND_ORGANIZATION ( #133, #29 ) ;
#25 = VECTOR ( 'NONE', #130, 1000.000000000000000 ) ;
#26 = ADVANCED_BREP_SHAPE_REPRESENTATION ( 'Q-QZWP-R4-25.4-633-M', ( #149, #123 ), #107 ) ;
#27 = EDGE_CURVE ( 'NONE', #113, #109, #124, .T. ) ;
#28 = ORIENTED_EDGE ( 'NONE', *, *, #106, .F. ) ;
#29 = ORGANIZATION ( 'UNSPECIFIED', 'UNSPECIFIED', '' ) ;
#30 = CC_DESIGN_PERSON_AND_ORGANIZATION_ASSIGNMENT ( #34, #23, ( #135 ) ) ;
#31 = FACE_OUTER_BOUND ( 'NONE', #155, .T. ) ;
#32 = AXIS2_PLACEMENT_3D ( 'NONE', #91, #98, #72 ) ;
#33 = FACE_OUTER_BOUND ( 'NONE', #12, .T. ) ;
#34 = PERSON_AND_ORGANIZATION ( #133, #29 ) ;
#35 = CARTESIAN_POINT ( 'NONE',  ( -1.614212418857619014, 0.000000000000000000, 0.000000000000000000 ) ) ;
#36 = COORDINATED_UNIVERSAL_TIME_OFFSET ( 8, 0, .AHEAD. ) ;
#37 = LOCAL_TIME ( 9, 28, 3.000000000000000000, #10 ) ;
#38 =( NAMED_UNIT ( * ) PLANE_ANGLE_UNIT ( ) SI_UNIT ( $, .RADIAN. ) );
#39 = CLOSED_SHELL ( 'NONE', ( #11, #69, #146, #42 ) ) ;
#40 = DATE_AND_TIME ( #17, #154 ) ;
#41 = SECURITY_CLASSIFICATION ( '', '', #116 ) ;
#42 = ADVANCED_FACE ( 'NONE', ( #140 ), #111, .F. ) ;
#43 = CIRCLE ( 'NONE', #108, 15.00000000000000000 ) ;
#44 = ORIENTED_EDGE ( 'NONE', *, *, #112, .T. ) ;
#45 = LOCAL_TIME ( 9, 28, 3.000000000000000000, #36 ) ;
#46 = CARTESIAN_POINT ( 'NONE',  ( -1.614212418857619014, 0.000000000000000000, 0.000000000000000000 ) ) ;
#47 = CARTESIAN_POINT ( 'NONE',  ( 3.000000000000000000, 0.000000000000000000, 15.00000000000000000 ) ) ;
#48 = APPROVAL_DATE_TIME ( #67, #161 ) ;
#49 = CYLINDRICAL_SURFACE ( 'NONE', #175, 15.00000000000000000 ) ;
#50 = CALENDAR_DATE ( 2020, 23, 12 ) ;
#51 = CARTESIAN_POINT ( 'NONE',  ( -3.000000000000000888, 12.69999999999999929, 0.000000000000000000 ) ) ;
#52 = CC_DESIGN_PERSON_AND_ORGANIZATION_ASSIGNMENT ( #88, #134, ( #96 ) ) ;
#53 = CALENDAR_DATE ( 2020, 23, 12 ) ;
#54 = LOCAL_TIME ( 9, 28, 3.000000000000000000, #169 ) ;
#55 = CC_DESIGN_DATE_AND_TIME_ASSIGNMENT ( #119, #94, ( #41 ) ) ;
#56 = APPROVAL_PERSON_ORGANIZATION ( #143, #13, #145 ) ;
#57 = CIRCLE ( 'NONE', #150, 15.00000000000000000 ) ;
#58 = EDGE_LOOP ( 'NONE', ( #84, #44, #97, #28 ) ) ;
#59 = CC_DESIGN_DATE_AND_TIME_ASSIGNMENT ( #103, #90, ( #96 ) ) ;
#60 = CARTESIAN_POINT ( 'NONE',  ( 3.000000000000000000, 1.836970198721029589E-15, -15.00000000000000000 ) ) ;
#61 = ORIENTED_EDGE ( 'NONE', *, *, #9, .F. ) ;
#62 = MECHANICAL_CONTEXT ( 'NONE', #151, 'mechanical' ) ;
#63 = CARTESIAN_POINT ( 'NONE',  ( -3.000000000000000000, 0.000000000000000000, 15.00000000000000000 ) ) ;
#64 = AXIS2_PLACEMENT_3D ( 'NONE', #102, #5, #139 ) ;
#65 = PERSON_AND_ORGANIZATION ( #133, #29 ) ;
#66 = COORDINATED_UNIVERSAL_TIME_OFFSET ( 8, 0, .AHEAD. ) ;
#67 = DATE_AND_TIME ( #50, #37 ) ;
#68 = CC_DESIGN_APPROVAL ( #99, ( #41 ) ) ;
#69 = ADVANCED_FACE ( 'NONE', ( #31 ), #118, .F. ) ;
#70 = EDGE_LOOP ( 'NONE', ( #128, #165 ) ) ;
#71 = CYLINDRICAL_SURFACE ( 'NONE', #121, 15.00000000000000000 ) ;
#72 = DIRECTION ( 'NONE',  ( -0.000000000000000000, 0.000000000000000000, 1.000000000000000000 ) ) ;
#73 = DIRECTION ( 'NONE',  ( 0.000000000000000000, 0.000000000000000000, -1.000000000000000000 ) ) ;
#74 = PERSON_AND_ORGANIZATION_ROLE ( 'classification_officer' ) ;
#75 = CARTESIAN_POINT ( 'NONE',  ( -1.614212418857619014, 0.000000000000000000, 15.00000000000000000 ) ) ;
#76 = DESIGN_CONTEXT ( 'detailed design', #163, 'design' ) ;
#77 = CALENDAR_DATE ( 2020, 23, 12 ) ;
#78 = COORDINATED_UNIVERSAL_TIME_OFFSET ( 8, 0, .AHEAD. ) ;
#79 = DATE_AND_TIME ( #53, #15 ) ;
#80 = CC_DESIGN_APPROVAL ( #13, ( #135 ) ) ;
#81 = PRODUCT_RELATED_PRODUCT_CATEGORY ( 'detail', '', ( #156 ) ) ;
#82 = ORIENTED_EDGE ( 'NONE', *, *, #27, .F. ) ;
#83 = ORIENTED_EDGE ( 'NONE', *, *, #9, .T. ) ;
#84 = ORIENTED_EDGE ( 'NONE', *, *, #1, .F. ) ;
#85 = DIRECTION ( 'NONE',  ( 0.000000000000000000, 0.000000000000000000, 1.000000000000000000 ) ) ;
#86 = CARTESIAN_POINT ( 'NONE',  ( 0.000000000000000000, 0.000000000000000000, 0.000000000000000000 ) ) ;
#87 = CARTESIAN_POINT ( 'NONE',  ( -1.614212418857619014, 1.836970198721029589E-15, -15.00000000000000000 ) ) ;
#88 = PERSON_AND_ORGANIZATION ( #133, #29 ) ;
#89 = ORIENTED_EDGE ( 'NONE', *, *, #1, .T. ) ;
#90 = DATE_TIME_ROLE ( 'creation_date' ) ;
#91 = CARTESIAN_POINT ( 'NONE',  ( 3.000000000000000888, 12.69999999999999929, 0.000000000000000000 ) ) ;
#92 = PERSON_AND_ORGANIZATION_ROLE ( 'design_owner' ) ;
#93 = APPLICATION_PROTOCOL_DEFINITION ( 'international standard', 'config_control_design', 1994, #151 ) ;
#94 = DATE_TIME_ROLE ( 'classification_date' ) ;
#95 = APPROVAL_PERSON_ORGANIZATION ( #171, #161, #141 ) ;
#96 = PRODUCT_DEFINITION ( 'UNKNOWN', '', #135, #76 ) ;
#97 = ORIENTED_EDGE ( 'NONE', *, *, #173, .T. ) ;
#98 = DIRECTION ( 'NONE',  ( -1.000000000000000000, 0.000000000000000000, -0.000000000000000000 ) ) ;
#99 = APPROVAL ( #131, 'UNSPECIFIED' ) ;
#100 = CARTESIAN_POINT ( 'NONE',  ( 3.000000000000000000, 0.000000000000000000, 0.000000000000000000 ) ) ;
#101 = APPROVAL_STATUS ( 'not_yet_approved' ) ;
#102 = CARTESIAN_POINT ( 'NONE',  ( -3.000000000000000000, 0.000000000000000000, 0.000000000000000000 ) ) ;
#103 = DATE_AND_TIME ( #77, #45 ) ;
#104 = APPROVAL_DATE_TIME ( #79, #99 ) ;
#105 = CARTESIAN_POINT ( 'NONE',  ( -3.000000000000000000, 0.000000000000000000, 0.000000000000000000 ) ) ;
#106 = EDGE_CURVE ( 'NONE', #109, #113, #136, .T. ) ;
#107 =( GEOMETRIC_REPRESENTATION_CONTEXT ( 3 ) GLOBAL_UNCERTAINTY_ASSIGNED_CONTEXT ( ( #22 ) ) GLOBAL_UNIT_ASSIGNED_CONTEXT ( ( #170, #38, #8 ) ) REPRESENTATION_CONTEXT ( 'NONE', 'WORKASPACE' ) );
#108 = AXIS2_PLACEMENT_3D ( 'NONE', #100, #147, #142 ) ;
#109 = VERTEX_POINT ( 'NONE', #115 ) ;
#110 = CC_DESIGN_PERSON_AND_ORGANIZATION_ASSIGNMENT ( #167, #92, ( #156 ) ) ;
#111 = PLANE ( 'NONE',  #152 ) ;
#112 = EDGE_CURVE ( 'NONE', #153, #3, #57, .T. ) ;
#113 = VERTEX_POINT ( 'NONE', #63 ) ;
#114 = APPLICATION_PROTOCOL_DEFINITION ( 'international standard', 'config_control_design', 1994, #163 ) ;
#115 = CARTESIAN_POINT ( 'NONE',  ( -3.000000000000000000, 1.836970198721029589E-15, -15.00000000000000000 ) ) ;
#116 = SECURITY_CLASSIFICATION_LEVEL ( 'unclassified' ) ;
#117 = PERSON_AND_ORGANIZATION_ROLE ( 'creator' ) ;
#118 = PLANE ( 'NONE',  #32 ) ;
#119 = DATE_AND_TIME ( #4, #54 ) ;
#120 = CC_DESIGN_SECURITY_CLASSIFICATION ( #41, ( #135 ) ) ;
#121 = AXIS2_PLACEMENT_3D ( 'NONE', #46, #18, #125 ) ;
#122 = VECTOR ( 'NONE', #158, 1000.000000000000000 ) ;
#123 = AXIS2_PLACEMENT_3D ( 'NONE', #86, #21, #157 ) ;
#124 = CIRCLE ( 'NONE', #14, 15.00000000000000000 ) ;
#125 = DIRECTION ( 'NONE',  ( 0.000000000000000000, 0.000000000000000000, 1.000000000000000000 ) ) ;
#126 = CC_DESIGN_PERSON_AND_ORGANIZATION_ASSIGNMENT ( #65, #117, ( #135 ) ) ;
#127 = PRODUCT_DEFINITION_SHAPE ( 'NONE', 'NONE',  #96 ) ;
#128 = ORIENTED_EDGE ( 'NONE', *, *, #27, .T. ) ;
#129 = APPROVAL_STATUS ( 'not_yet_approved' ) ;
#130 = DIRECTION ( 'NONE',  ( -1.000000000000000000, -0.000000000000000000, -0.000000000000000000 ) ) ;
#131 = APPROVAL_STATUS ( 'not_yet_approved' ) ;
#132 = LINE ( 'NONE', #87, #122 ) ;
#133 = PERSON ( 'UNSPECIFIED', 'UNSPECIFIED', 'UNSPECIFIED', ('UNSPECIFIED'), ('UNSPECIFIED'), ('UNSPECIFIED') ) ;
#134 = PERSON_AND_ORGANIZATION_ROLE ( 'creator' ) ;
#135 = PRODUCT_DEFINITION_FORMATION_WITH_SPECIFIED_SOURCE ( 'ANY', '', #156, .NOT_KNOWN. ) ;
#136 = CIRCLE ( 'NONE', #64, 15.00000000000000000 ) ;
#137 = CC_DESIGN_APPROVAL ( #161, ( #96 ) ) ;
#138 = ORIENTED_EDGE ( 'NONE', *, *, #173, .F. ) ;
#139 = DIRECTION ( 'NONE',  ( 0.000000000000000000, 0.000000000000000000, 1.000000000000000000 ) ) ;
#140 = FACE_OUTER_BOUND ( 'NONE', #70, .T. ) ;
#141 = APPROVAL_ROLE ( '' ) ;
#142 = DIRECTION ( 'NONE',  ( 0.000000000000000000, 0.000000000000000000, 1.000000000000000000 ) ) ;
#143 = PERSON_AND_ORGANIZATION ( #133, #29 ) ;
#144 = DIRECTION ( 'NONE',  ( -1.000000000000000000, -0.000000000000000000, -0.000000000000000000 ) ) ;
#145 = APPROVAL_ROLE ( '' ) ;
#146 = ADVANCED_FACE ( 'NONE', ( #16 ), #49, .T. ) ;
#147 = DIRECTION ( 'NONE',  ( -1.000000000000000000, -0.000000000000000000, -0.000000000000000000 ) ) ;
#148 = APPROVAL_DATE_TIME ( #40, #13 ) ;
#149 = MANIFOLD_SOLID_BREP ( 'Ðý×', #39 ) ;
#150 = AXIS2_PLACEMENT_3D ( 'NONE', #168, #20, #85 ) ;
#151 = APPLICATION_CONTEXT ( 'configuration controlled 3d designs of mechanical parts and assemblies' ) ;
#152 = AXIS2_PLACEMENT_3D ( 'NONE', #51, #166, #73 ) ;
#153 = VERTEX_POINT ( 'NONE', #60 ) ;
#154 = LOCAL_TIME ( 9, 28, 3.000000000000000000, #66 ) ;
#155 = EDGE_LOOP ( 'NONE', ( #61, #164 ) ) ;
#156 = PRODUCT ( 'Q-QZWP-R4-25.4-633-M', 'Q-QZWP-R4-25.4-633-M', '', ( #62 ) ) ;
#157 = DIRECTION ( 'NONE',  ( 1.000000000000000000, 0.000000000000000000, 0.000000000000000000 ) ) ;
#158 = DIRECTION ( 'NONE',  ( -1.000000000000000000, -0.000000000000000000, -0.000000000000000000 ) ) ;
#159 = DIRECTION ( 'NONE',  ( 0.000000000000000000, 0.000000000000000000, 1.000000000000000000 ) ) ;
#160 = SHAPE_DEFINITION_REPRESENTATION ( #127, #26 ) ;
#161 = APPROVAL ( #101, 'UNSPECIFIED' ) ;
#162 = CC_DESIGN_PERSON_AND_ORGANIZATION_ASSIGNMENT ( #19, #74, ( #41 ) ) ;
#163 = APPLICATION_CONTEXT ( 'configuration controlled 3d designs of mechanical parts and assemblies' ) ;
#164 = ORIENTED_EDGE ( 'NONE', *, *, #112, .F. ) ;
#165 = ORIENTED_EDGE ( 'NONE', *, *, #106, .T. ) ;
#166 = DIRECTION ( 'NONE',  ( 1.000000000000000000, 0.000000000000000000, 0.000000000000000000 ) ) ;
#167 = PERSON_AND_ORGANIZATION ( #133, #29 ) ;
#168 = CARTESIAN_POINT ( 'NONE',  ( 3.000000000000000000, 0.000000000000000000, 0.000000000000000000 ) ) ;
#169 = COORDINATED_UNIVERSAL_TIME_OFFSET ( 8, 0, .AHEAD. ) ;
#170 =( LENGTH_UNIT ( ) NAMED_UNIT ( * ) SI_UNIT ( .MILLI., .METRE. ) );
#171 = PERSON_AND_ORGANIZATION ( #133, #29 ) ;
#172 = LINE ( 'NONE', #75, #25 ) ;
#173 = EDGE_CURVE ( 'NONE', #3, #113, #172, .T. ) ;
#174 = APPROVAL_PERSON_ORGANIZATION ( #24, #99, #7 ) ;
#175 = AXIS2_PLACEMENT_3D ( 'NONE', #35, #144, #6 ) ;
ENDSEC;
END-ISO-10303-21;
